venerdì 17 agosto 2007

Van Halen - Ain'T Talkin' Bout Love [Tabl]



Guitar Tabs by: Eddie Van Halen
Tabs for song: Ain'T Talkin' 'Bout Love

#----------------------------------PLEASE NOTE----------------------------------#
# This file is the author's own work and represents their interpretation of the #
# song. You may only use this file for private study, scholarship, or research. #
#-------------------------------------------------------------------------------#

"Ain't Talkin' 'Bout Love" (Van Halen)intro:

Am.........F.....G
---------0-1-----3--------------
-----1-------1-----3------------
-------2-------0-----0----------
---2----------------------------
-0-------------------0-3b*-2-3--
--------------------------------

*pinch harmonic

Chorus:
Am (x0221x)
G (3x000x)

Verse:

Am........F....G
----------1----3----------------
------1-----1--3----------------
--------2------0----------------
---2----------------------------
-0----------------0-3--2-3------
--------------------------------

I'll try to post the solo later.....
Check y'all


Another version of this famous riff:
e---------------------------------------------------------------
B---------------------------------------------------------------
G---------------------------12(h)-------------------------------
D-----10------14-15--10-12-------12(h)--------------------------
A---7------12--------------------------10--3-(a.h.)-2--3-(a.h.)-
E-5-------------------------------------------------------------


Enjoy!

Nessun commento:

Related Posts Plugin for WordPress, Blogger...